NoMoreLyrics - Database letras para todos os gêneros de música e palavras de muitos filmes musicais
Lenine letras   Paciência letra
 A B C D E F G H I J K L M N O P Q R S T U V W X Y Z 0-9
 
English Deutsch Nederland Italiano Türkçe Russian Arabic Srpski

Enviar "Paciência" Toques para o seu celular

Lenine letras



Paciência letras

Versão 1
---------
Introdução: G Em/D C/D G

G Em/D
Mesmo quando tudo pede um pouco mais de calma
C/D
Até quando o corpo pede um pouco mais de alma
G
A vida não para
G Em/D
Enquanto o tempo acelera e pede pressa
C/D
Eu me recuso faço hora, vou na valsa
G
A vida é tão rara
G G/F# Em/D
Enquanto todo mundo espera a cura do mal
G G/F# Em/D
E a loucura finge que isso tudo é normal
C/D G
Eu finjo ter paciência
G G/F# Em/D
O mundo vai girando cada vez mais veloz
G G/F# Em/D C/D
Agente espera do mundo e o mundo espera de nós
G
Um pouco mais de paciência

<-2x
F
Será que é tempo que lhe falta pra perceber
Em/D
Será que temos esse tempo pra perder
C/D G
E quem quer saber, a vida é tão rara... tão rara

Mesmo quando tudo pede um pouco mais de calma
2x Em/D 
Até quando o corpo pede um pouco mais de alma
C/D G
Eu sei, a vida não para

A vida não para não

A vida não para
<-


Agradecimentos a: Marquinhos (mferracioli@ig.com.br)

Versão 2
--------

PACIÊNCIA - LENINE
~~~~~~~~~~~~~~~~~~
Disco:??
Cifrada por: João Emmanuel 

Intro:G Em7 C9 Am7 

G D/F# Em 
Mesmo quando tudo pede um pouco mais de calma
Em7 C9 
Até quando o corpo pede um pouco mais de alma
Am7 G
A vida não para
G D/F# Em
Enquanto o tempo acelera e pede preça
Em7 C9
Eu me recuso faço hora vou na valsa
Am7 G 
A vida tão rara
G D/F# Em 
Enquanto todo mundo espera a cura do mal
Em7 C9 
E a loucura finge que isso tudo é normal
Am7 G
Eu finjo ter paciência
G D/F# Em 
O mundo vai girando cada vez mais veloz
Em7 C9 
A gente espera do mundo e o mundo espera de nós
Am7 G
Um pouco mais de paciência

Será que é o tempo que me falta pra perceber
Em Em7 
Será que temos esse tempo pra perder
C9 Am7 
E quem quer saber 

A vida é tão rara(Tão rara)

Mesmo quando tudo pede um pouco mais de calma
Em Em7 
Mesmo quando o corpo pede um pouco mais de alma
C9 Am7 G 
Eu sei, a vida não para(a vida não para não)

(Solo - piano - 17seg)

F
Será que é tempo que me falta pra perceber
Em
Será que temos esse tempo pra perder 
C9 Am7
E quem quer saber
G
A vida é tão rara(tão rara)
F
Mesmo quando tudo pede um pouco mais de calma 
Em Em7 
Até quando o corpo pede um pouco mais de alma
C9 Am7 G 
Eu sei, a vida não para(a vida não para não...a vida não para)

ACORDES:
~~~~~~~~
G D/F# Em Em7 C9 Am7 F 
e|--3--|--0--|--2--|-----|--0--|--3--|-1---|
B|--3--|--3--|--3--|-----|--3--|--1--|-1---|
G|--0--|--2--|--4--|-----|--0--|--0--|-1-2-|
D|--0--|--0--|--4--|--2--|--2--|--2--|-1-3-|
A|--2--|--0--|--2--|--2--|--3--|--0--|-1-3-|
E|--3--|--2--|-----|-----|--0--|--0--|-1---|


Versão 3
--------
Paciência - Lenine

Tom: G


É uma música bem simples, que segue em quase toda sua extensão com o seguinte:


e-------------------------------------------------|
B------3-------3---3-----------3-------3---3------|
G----0---0-------0-----------0---0-------0--------|
D-------------------------------------------------|
A-------------------------------------------------|
E--3---------3-------------3---------3------------|

Mesmo quando... Pede... mais de calma

e-------------------------------------------------|
B------3-------3---3-----------3-------3---3------|
G----0---0-------0-----------0---0-------0--------|
D-------------------------------------------------|
A-------------------------------------------------|
E--0---------0-------------0---------0------------|

Até quando pede... mais de alma

e-------------------------------------------------|
B------3-------3---3-----------3-------3---3------|
G----0---0-------0-----------0---0-------0--------|
D-------------------------------------------------|
A--3---------3-------------3---------3------------|
E-------------------------------------------------|

A vida não pára


Com uma eve variação durante o refrão:

e-------------------------------------------------|
B------3-------3---3-----------3-------3---3------|
G----0---0-------0-----------0---0-------0--------|
D-------------------------------------------------|
A-------------------------------------------------|
E--1---------1-------------1---------1------------|

Será... tempo... falta... perceber?

e-------------------------------------------------|
B------3-------3---3-----------3-------3---3------|
G----0---0-------0-----------0---0-------0--------|
D-------------------------------------------------|
A-------------------------------------------------|
E--0---------0-------------0---------0------------|

Será que temos esse tempo prá perder?

e-------------------------------------------------|
B------3-------3---3-----------3-------3---3------|
G----0---0-------0-----------0---0-------0--------|
D-------------------------------------------------|
A--3---------3-------------3---------3------------|
E-------------------------------------------------|

E quem.. saber? A vida é tão rara...


E volta ao padrão inicial.

Tabs: Tato Pedrosa (tpedrosa@netrn.com.br)
Imprima! Use! Mas não tire meu nome... Qualquer dúvida, imêiou-me. 
</pre>
</font>

Enviar "Paciência" Toques para o seu celular




Outras letras do Lenine



Letras do Lenine       Paciência letras



Todas as letras são propriedade e copyright de seus proprietários. Todas as palavras têm fornecido apenas para fins educacionais.
Copyright © 2003-2014 No More Lyrics .net