NoMoreLyrics - Türkiye'nin müzik sitesi şarkı arıyorum, akorları
Egoist sözleri - Egoist
Sanatçı adıyla sıralı liste:   A B C Ç D E F G H I İ J K L M N O Ö P R S Ş T U Ü V W Y Z
English Deutsch French Nederland Português Italiano Russian Arabic Srpski Hebrew
Anasayfa >> Egoist >> Egoist
Egoist Tablari

Intro ve Nakarat:
e|---------------------|---------------------|}
b|---------------------|---------------------|}
g|---------------------|---------------------|}
d|--------------8-7----|--------------8-7----|}}
a|-10----8-10-------10-|-10----8-10-------10-|}}
e|----10---------------|----10---------------|}}
}}} 2 defa
e|------------------|------------------------|}}
b|------------------|------------------------|}}
g|------------------|------------------------|}}
d|-7------7-------7-|------------------------|}
a|---8-10----8-10---|-10----8-10-12----10-12-|}
e|------------------|----10---------12-------|}

Ve

e|---------------------|---------------------|
b|---------------------|---------------------|
g|---------------------|---------------------|
d|--------------8-7----|--------------8-7----|
a|-10----8-10-------10-|-10----8-10-------10-|
e|----10---------------|----10---------------|

e|------------------|--------------------------------|
b|------------------|--------------------------------|
g|------------------|--------------------------------|
d|-7------7-------7-|---8-7--------------------------|
a|---8-10----8-10---|-------10-8-6-5-6~~~--8--10--10-|
e|------------------|--------------------------------|

Gm Gm
Paylaþmayý hiç bilmedin
Ebm Ebm Cm Cm
sen, Kýskandýn beni her gördüðünden,
Cm Dm
Bir tek caným kaldý vermediðim, ...

Gm
Senin malýn deðilim ben,
Gm Gm
Bir daha vazgeçmem seçtiklerimden,
Cm
Hekimler bulsun senin çareni,
Dm
Düþ yakamdan yeter ki.

Eb
Ýyinin kötüsü - Duygu sömürüsü,
Cm
Bir ömür törpüsü,
Eb Cm
(ahh) Hasretim neþeye gülüp eðlenmeye,
Dm
Her gece...


Nakarat:

Gm
Sen Egoistsin aþýksýn,
F
sevgiden ne anlarsýn?
Cm Dm
Senin gözün caným çok yüksekte,
Gm F
Sen duygu fakiri, ben gönül zengini,
Cm Dm
Benim büyük aþkým, senin neyine





Copyright © 2003-2016 No More Lyrics .net