NoMoreLyrics - тексты песен и аккорды к песням
Поиск по алфавиту:   А Б В Г Д Е Ж З И Й К Л М Н О П Р С Т У Ф Х Ц Ч Ш Щ Э Ю Я
English Deutsch French Nederland Italiano Tц╪rkц╖e Arabic Hebrew
В начало >> Жуки >> Батарейка
Жуки тексты песен и аккорды

Батарейка текст песни и аккорды


; подобрал Roman aka Стратег (icq:8026787)


Hm A G F#


Hm A G F#
Холодный ветер с дождем усилися стократно
Hm A G F#
Все говорит об одном что нет пути обратно
Hm A G F#
Что ты не мой лапушок а я не твой Андрейка
Hm A G F#
Что у любви у нашей села батарейка


H5 A5 G5 F#5
О-о-и-я-и-ё батарейка
О-о-и-я-и-ё батарейка


Я тоскавал по тебе в минуты расстованья
Ты возвращалась ко мне сквозь сны и расстоянья
Но не смотря ни на что пришла судьба-злодейка
И у любви у нашей села батарейка


О-о-и-я-и-ё батарейка
О-о-и-я-и-ё батарейка


И вроде все как всегда все те же вилки ложки
Все та же в кране вода все тот же стул без ножки
И все о том же с утра щебечет канарейка
Лишь у любви у нашей села батарейка


О-о-и-я-и-ё батарейка
О-о-и-я-и-ё батарейка
О-о-и-я-и-ё батарейка
О-о-и-я-и-ё батарейка


О-о-и-я-и-ё батарейка
О-о-и-я-и-ё батарейка
О-о-и-я-и-ё батарейка
О-о-и-я-и-ё батарейка


Hm A G(III) F#
E|------2---|------0---|------3---|------2---| guitar
B|------3---|------2---|------3---|------2---|
G|----4---4-|----2---2-|----4---4-|----3---3-|
D|----------|----------|----------|----------|
A|-2--------|-0--------|----------|----------|
E|----------|----------|-3--------|-2--------|


A|-2--------|-0--0-----|----------|----------| bass
E|----------|----------|-3--------|-2--2-----|


; подобрал: Roman aka Стратег (icq:8026787)






All lyrics are property and copyright of their owners. All lyrics provided for educational purposes only.
Copyright © 2003-2015 No More Lyrics .net